ISO-10303-21;
HEADER;
FILE_DESCRIPTION (( 'STEP AP214' ),
    '1' );
FILE_NAME ('1147076.STEP',
    '2026-03-11T09:27:21',
    ( '' ),
    ( '' ),
    'SwSTEP 2.0',
    'SolidWorks 2024',
    '' );
FILE_SCHEMA (( 'AUTOMOTIVE_DESIGN' ));
ENDSEC;

DATA;
#1 = ORIENTED_EDGE ( 'NONE', *, *, #115, .T. ) ;
#2 = LINE ( 'NONE', #159, #58 ) ;
#3 = ORIENTED_EDGE ( 'NONE', *, *, #91, .T. ) ;
#4 = UNCERTAINTY_MEASURE_WITH_UNIT (LENGTH_MEASURE( 1.000000000000000082E-05 ), #105, 'distance_accuracy_value', 'NONE');
#5 = ORIENTED_EDGE ( 'NONE', *, *, #260, .F. ) ;
#6 = PLANE ( 'NONE',  #126 ) ;
#7 = VERTEX_POINT ( 'NONE', #27 ) ;
#8 = CARTESIAN_POINT ( 'NONE',  ( 3.386877561412629856, 0.000000000000000000, -12.40000000000000036 ) ) ;
#9 = FACE_OUTER_BOUND ( 'NONE', #125, .T. ) ;
#10 = CARTESIAN_POINT ( 'NONE',  ( 0.000000000000000000, 0.000000000000000000, 0.000000000000000000 ) ) ;
#11 = DIRECTION ( 'NONE',  ( -1.000000000000000000, -0.000000000000000000, -1.002687990242403024E-16 ) ) ;
#12 = VECTOR ( 'NONE', #111, 999.9999999999998863 ) ;
#13 = DIRECTION ( 'NONE',  ( 1.000000000000000000, 0.000000000000000000, 1.002687990242403024E-16 ) ) ;
#14 = EDGE_LOOP ( 'NONE', ( #113, #81, #187, #83 ) ) ;
#15 = LINE ( 'NONE', #30, #12 ) ;
#16 = DIRECTION ( 'NONE',  ( -0.000000000000000000, -1.000000000000000000, -0.000000000000000000 ) ) ;
#17 = PRODUCT_DEFINITION_FORMATION_WITH_SPECIFIED_SOURCE ( 'ANY', '', #237, .NOT_KNOWN. ) ;
#18 = VECTOR ( 'NONE', #243, 1000.000000000000000 ) ;
#19 = SURFACE_STYLE_FILL_AREA ( #60 ) ;
#20 = AXIS2_PLACEMENT_3D ( 'NONE', #73, #176, #37 ) ;
#21 = PRODUCT_RELATED_PRODUCT_CATEGORY ( 'part', '', ( #237 ) ) ;
#22 = SURFACE_SIDE_STYLE ('',( #19 ) ) ;
#23 = ORIENTED_EDGE ( 'NONE', *, *, #82, .T. ) ;
#24 = ADVANCED_FACE ( 'NONE', ( #110 ), #92, .F. ) ;
#25 = AXIS2_PLACEMENT_3D ( 'NONE', #119, #153, #144 ) ;
#26 = CARTESIAN_POINT ( 'NONE',  ( 13.91385300341075038, 0.000000000000000000, 12.40000000000000213 ) ) ;
#27 = CARTESIAN_POINT ( 'NONE',  ( -13.91385300341075038, 0.000000000000000000, -12.40000000000000213 ) ) ;
#28 = PRESENTATION_LAYER_ASSIGNMENT (  '', '', ( #255 ) ) ;
#29 = CARTESIAN_POINT ( 'NONE',  ( 3.061616997868382648E-16, 4.000000000000000000, -2.499999999999999556 ) ) ;
#30 = CARTESIAN_POINT ( 'NONE',  ( -13.91385300341075038, 0.000000000000000000, -12.40000000000000213 ) ) ;
#31 = EDGE_LOOP ( 'NONE', ( #208, #130, #78, #230 ) ) ;
#32 = CARTESIAN_POINT ( 'NONE',  ( 3.386877561412629856, 4.000000000000000000, -12.40000000000000036 ) ) ;
#33 = DIRECTION ( 'NONE',  ( -0.000000000000000000, 1.000000000000000000, -0.000000000000000000 ) ) ;
#34 = CARTESIAN_POINT ( 'NONE',  ( -13.91385300341075038, 4.000000000000000000, -12.40000000000000213 ) ) ;
#35 = PRODUCT_CONTEXT ( 'NONE', #129, 'mechanical' ) ;
#36 = CLOSED_SHELL ( 'NONE', ( #177, #24, #199, #194, #112, #132, #59, #62 ) ) ;
#37 = DIRECTION ( 'NONE',  ( 1.000000000000000000, 0.000000000000000000, 0.000000000000000000 ) ) ;
#38 = EDGE_LOOP ( 'NONE', ( #166, #104 ) ) ;
#39 =( NAMED_UNIT ( * ) SI_UNIT ( $, .STERADIAN. ) SOLID_ANGLE_UNIT ( ) );
#40 =( LENGTH_UNIT ( ) NAMED_UNIT ( * ) SI_UNIT ( .MILLI., .METRE. ) );
#41 = EDGE_CURVE ( 'NONE', #148, #245, #228, .T. ) ;
#42 = CARTESIAN_POINT ( 'NONE',  ( 3.386877561412629856, 4.000000000000000000, -12.40000000000000036 ) ) ;
#43 = PLANE ( 'NONE',  #54 ) ;
#44 = ORIENTED_EDGE ( 'NONE', *, *, #213, .F. ) ;
#45 = CARTESIAN_POINT ( 'NONE',  ( 0.000000000000000000, 0.000000000000000000, 0.000000000000000000 ) ) ;
#46 = CIRCLE ( 'NONE', #197, 2.499999999999999556 ) ;
#47 = LINE ( 'NONE', #259, #69 ) ;
#48 = MECHANICAL_DESIGN_GEOMETRIC_PRESENTATION_REPRESENTATION (  '', ( #255 ), #103 ) ;
#49 = LINE ( 'NONE', #128, #109 ) ;
#50 = PLANE ( 'NONE',  #106 ) ;
#51 = CYLINDRICAL_SURFACE ( 'NONE', #151, 2.499999999999999112 ) ;
#52 = CARTESIAN_POINT ( 'NONE',  ( 13.91385300341075038, 4.000000000000000000, 12.40000000000000213 ) ) ;
#53 = LINE ( 'NONE', #89, #158 ) ;
#54 = AXIS2_PLACEMENT_3D ( 'NONE', #32, #192, #122 ) ;
#55 = DIRECTION ( 'NONE',  ( -0.000000000000000000, 1.000000000000000000, -0.000000000000000000 ) ) ;
#56 =( GEOMETRIC_REPRESENTATION_CONTEXT ( 3 ) GLOBAL_UNCERTAINTY_ASSIGNED_CONTEXT ( ( #139 ) ) GLOBAL_UNIT_ASSIGNED_CONTEXT ( ( #40, #120, #39 ) ) REPRESENTATION_CONTEXT ( 'NONE', 'WORKASPACE' ) );
#57 = DIRECTION ( 'NONE',  ( 0.000000000000000000, 1.000000000000000000, 0.000000000000000000 ) ) ;
#58 = VECTOR ( 'NONE', #200, 1000.000000000000000 ) ;
#59 = ADVANCED_FACE ( 'NONE', ( #127, #9 ), #152, .F. ) ;
#60 = FILL_AREA_STYLE ('',( #198 ) ) ;
#61 =( NAMED_UNIT ( * ) PLANE_ANGLE_UNIT ( ) SI_UNIT ( $, .RADIAN. ) );
#62 = ADVANCED_FACE ( 'NONE', ( #232 ), #51, .F. ) ;
#63 = SURFACE_STYLE_USAGE ( .BOTH. , #22 ) ;
#64 = LINE ( 'NONE', #84, #157 ) ;
#65 = DIRECTION ( 'NONE',  ( 0.000000000000000000, -0.000000000000000000, 1.000000000000000000 ) ) ;
#66 = ORIENTED_EDGE ( 'NONE', *, *, #134, .T. ) ;
#67 = DIRECTION ( 'NONE',  ( -0.000000000000000000, 1.000000000000000000, -0.000000000000000000 ) ) ;
#68 = CARTESIAN_POINT ( 'NONE',  ( -3.386877561412633408, 0.000000000000000000, 12.40000000000000036 ) ) ;
#69 = VECTOR ( 'NONE', #131, 1000.000000000000000 ) ;
#70 = ORIENTED_EDGE ( 'NONE', *, *, #235, .F. ) ;
#71 = EDGE_CURVE ( 'NONE', #173, #252, #47, .T. ) ;
#72 = CARTESIAN_POINT ( 'NONE',  ( 3.386877561412629856, 4.000000000000000000, -12.40000000000000036 ) ) ;
#73 = CARTESIAN_POINT ( 'NONE',  ( 0.000000000000000000, 0.000000000000000000, 0.000000000000000000 ) ) ;
#74 = APPLICATION_PROTOCOL_DEFINITION ( 'draft international standard', 'automotive_design', 1998, #129 ) ;
#75 = AXIS2_PLACEMENT_3D ( 'NONE', #10, #33, #124 ) ;
#76 = AXIS2_PLACEMENT_3D ( 'NONE', #45, #87, #94 ) ;
#77 = CARTESIAN_POINT ( 'NONE',  ( 0.000000000000000000, 4.000000000000000000, 2.499999999999999556 ) ) ;
#78 = ORIENTED_EDGE ( 'NONE', *, *, #155, .T. ) ;
#79 = CARTESIAN_POINT ( 'NONE',  ( 0.000000000000000000, 4.000000000000000000, 0.000000000000000000 ) ) ;
#80 = VERTEX_POINT ( 'NONE', #29 ) ;
#81 = ORIENTED_EDGE ( 'NONE', *, *, #96, .F. ) ;
#82 = EDGE_CURVE ( 'NONE', #173, #183, #53, .T. ) ;
#83 = ORIENTED_EDGE ( 'NONE', *, *, #213, .T. ) ;
#84 = CARTESIAN_POINT ( 'NONE',  ( -13.91385300341075038, 0.000000000000000000, -12.40000000000000213 ) ) ;
#85 = VERTEX_POINT ( 'NONE', #150 ) ;
#86 = ORIENTED_EDGE ( 'NONE', *, *, #241, .T. ) ;
#87 = DIRECTION ( 'NONE',  ( -0.000000000000000000, 1.000000000000000000, -0.000000000000000000 ) ) ;
#88 = DIRECTION ( 'NONE',  ( 0.000000000000000000, 1.000000000000000000, 0.000000000000000000 ) ) ;
#89 = CARTESIAN_POINT ( 'NONE',  ( -3.386877561412633408, 4.000000000000000000, 12.40000000000000036 ) ) ;
#90 = LINE ( 'NONE', #52, #239 ) ;
#91 = EDGE_CURVE ( 'NONE', #245, #173, #49, .T. ) ;
#92 = PLANE ( 'NONE',  #181 ) ;
#93 = PLANE ( 'NONE',  #117 ) ;
#94 = DIRECTION ( 'NONE',  ( 0.000000000000000000, 0.000000000000000000, 1.000000000000000000 ) ) ;
#95 = DIRECTION ( 'NONE',  ( -0.3907311284892713288, -0.000000000000000000, -0.9205048534524413739 ) ) ;
#96 = EDGE_CURVE ( 'NONE', #148, #137, #195, .T. ) ;
#97 = SHAPE_DEFINITION_REPRESENTATION ( #138, #236 ) ;
#98 = VECTOR ( 'NONE', #11, 1000.000000000000000 ) ;
#99 = LINE ( 'NONE', #249, #18 ) ;
#100 = VECTOR ( 'NONE', #13, 1000.000000000000000 ) ;
#101 = COLOUR_RGB ( '',0.7921568627450980005, 0.8196078431372548767, 0.9333333333333333481 ) ;
#102 = ORIENTED_EDGE ( 'NONE', *, *, #135, .T. ) ;
#103 =( GEOMETRIC_REPRESENTATION_CONTEXT ( 3 ) GLOBAL_UNCERTAINTY_ASSIGNED_CONTEXT ( ( #4 ) ) GLOBAL_UNIT_ASSIGNED_CONTEXT ( ( #105, #61, #206 ) ) REPRESENTATION_CONTEXT ( 'NONE', 'WORKASPACE' ) );
#104 = ORIENTED_EDGE ( 'NONE', *, *, #115, .F. ) ;
#105 =( LENGTH_UNIT ( ) NAMED_UNIT ( * ) SI_UNIT ( .MILLI., .METRE. ) );
#106 = AXIS2_PLACEMENT_3D ( 'NONE', #212, #207, #114 ) ;
#107 = LINE ( 'NONE', #186, #100 ) ;
#108 = ORIENTED_EDGE ( 'NONE', *, *, #235, .T. ) ;
#109 = VECTOR ( 'NONE', #154, 999.9999999999998863 ) ;
#110 = FACE_OUTER_BOUND ( 'NONE', #165, .T. ) ;
#111 = DIRECTION ( 'NONE',  ( 0.3907311284892712733, 0.000000000000000000, 0.9205048534524414849 ) ) ;
#112 = ADVANCED_FACE ( 'NONE', ( #215 ), #93, .F. ) ;
#113 = ORIENTED_EDGE ( 'NONE', *, *, #179, .T. ) ;
#114 = DIRECTION ( 'NONE',  ( -1.000000000000000000, 0.000000000000000000, -1.002687990242403024E-16 ) ) ;
#115 = EDGE_CURVE ( 'NONE', #80, #142, #136, .T. ) ;
#116 = DIRECTION ( 'NONE',  ( -1.002687990242403024E-16, 0.000000000000000000, 1.000000000000000000 ) ) ;
#117 = AXIS2_PLACEMENT_3D ( 'NONE', #34, #116, #193 ) ;
#118 = ORIENTED_EDGE ( 'NONE', *, *, #71, .T. ) ;
#119 = CARTESIAN_POINT ( 'NONE',  ( 0.000000000000000000, 4.000000000000000000, 0.000000000000000000 ) ) ;
#120 =( NAMED_UNIT ( * ) PLANE_ANGLE_UNIT ( ) SI_UNIT ( $, .RADIAN. ) );
#121 = MANIFOLD_SOLID_BREP ( 'M6 Gewindebohrung1', #36 ) ;
#122 = DIRECTION ( 'NONE',  ( 0.3907311284892713288, 0.000000000000000000, 0.9205048534524413739 ) ) ;
#123 = ORIENTED_EDGE ( 'NONE', *, *, #216, .T. ) ;
#124 = DIRECTION ( 'NONE',  ( 0.000000000000000000, 0.000000000000000000, 1.000000000000000000 ) ) ;
#125 = EDGE_LOOP ( 'NONE', ( #163, #5, #188, #256 ) ) ;
#126 = AXIS2_PLACEMENT_3D ( 'NONE', #242, #57, #226 ) ;
#127 = FACE_BOUND ( 'NONE', #160, .T. ) ;
#128 = CARTESIAN_POINT ( 'NONE',  ( -13.91385300341075038, 4.000000000000000000, -12.40000000000000213 ) ) ;
#129 = APPLICATION_CONTEXT ( 'automotive_design' ) ;
#130 = ORIENTED_EDGE ( 'NONE', *, *, #217, .F. ) ;
#131 = DIRECTION ( 'NONE',  ( -0.000000000000000000, -1.000000000000000000, -0.000000000000000000 ) ) ;
#132 = ADVANCED_FACE ( 'NONE', ( #156, #184 ), #6, .T. ) ;
#133 = DIRECTION ( 'NONE',  ( 1.000000000000000000, 0.000000000000000000, 1.002687990242403024E-16 ) ) ;
#134 = EDGE_CURVE ( 'NONE', #85, #80, #99, .T. ) ;
#135 = EDGE_CURVE ( 'NONE', #245, #7, #143, .T. ) ;
#136 = CIRCLE ( 'NONE', #231, 2.499999999999999556 ) ;
#137 = VERTEX_POINT ( 'NONE', #261 ) ;
#138 = PRODUCT_DEFINITION_SHAPE ( 'NONE', 'NONE',  #222 ) ;
#139 = UNCERTAINTY_MEASURE_WITH_UNIT (LENGTH_MEASURE( 1.000000000000000082E-05 ), #40, 'distance_accuracy_value', 'NONE');
#140 = FACE_OUTER_BOUND ( 'NONE', #246, .T. ) ;
#141 = APPLICATION_CONTEXT ( 'automotive_design' ) ;
#142 = VERTEX_POINT ( 'NONE', #77 ) ;
#143 = LINE ( 'NONE', #180, #258 ) ;
#144 = DIRECTION ( 'NONE',  ( 0.000000000000000000, 0.000000000000000000, 1.000000000000000000 ) ) ;
#145 = ORIENTED_EDGE ( 'NONE', *, *, #91, .F. ) ;
#146 = ORIENTED_EDGE ( 'NONE', *, *, #82, .F. ) ;
#147 = CARTESIAN_POINT ( 'NONE',  ( 13.91385300341075038, 4.000000000000000000, 12.40000000000000213 ) ) ;
#148 = VERTEX_POINT ( 'NONE', #42 ) ;
#149 = DIRECTION ( 'NONE',  ( 0.000000000000000000, 0.000000000000000000, 1.000000000000000000 ) ) ;
#150 = CARTESIAN_POINT ( 'NONE',  ( 3.061616997868382155E-16, 0.000000000000000000, -2.499999999999998668 ) ) ;
#151 = AXIS2_PLACEMENT_3D ( 'NONE', #253, #67, #149 ) ;
#152 = PLANE ( 'NONE',  #219 ) ;
#153 = DIRECTION ( 'NONE',  ( -0.000000000000000000, 1.000000000000000000, -0.000000000000000000 ) ) ;
#154 = DIRECTION ( 'NONE',  ( 0.3907311284892712733, 0.000000000000000000, 0.9205048534524414849 ) ) ;
#155 = EDGE_CURVE ( 'NONE', #224, #142, #2, .T. ) ;
#156 = FACE_BOUND ( 'NONE', #38, .T. ) ;
#157 = VECTOR ( 'NONE', #167, 1000.000000000000000 ) ;
#158 = VECTOR ( 'NONE', #133, 1000.000000000000000 ) ;
#159 = CARTESIAN_POINT ( 'NONE',  ( 0.000000000000000000, 4.000000000000000000, 2.499999999999999112 ) ) ;
#160 = EDGE_LOOP ( 'NONE', ( #170, #108 ) ) ;
#161 = DIRECTION ( 'NONE',  ( -0.000000000000000000, 1.000000000000000000, -0.000000000000000000 ) ) ;
#162 = EDGE_CURVE ( 'NONE', #142, #80, #46, .T. ) ;
#163 = ORIENTED_EDGE ( 'NONE', *, *, #240, .F. ) ;
#164 = ORIENTED_EDGE ( 'NONE', *, *, #41, .T. ) ;
#165 = EDGE_LOOP ( 'NONE', ( #205, #247, #145, #102 ) ) ;
#166 = ORIENTED_EDGE ( 'NONE', *, *, #162, .F. ) ;
#167 = DIRECTION ( 'NONE',  ( -1.000000000000000000, -0.000000000000000000, -1.002687990242403024E-16 ) ) ;
#168 = DIRECTION ( 'NONE',  ( -0.3907311284892712733, 0.000000000000000000, -0.9205048534524414849 ) ) ;
#169 = CARTESIAN_POINT ( 'NONE',  ( 0.000000000000000000, 0.000000000000000000, 2.499999999999998668 ) ) ;
#170 = ORIENTED_EDGE ( 'NONE', *, *, #217, .T. ) ;
#171 = CARTESIAN_POINT ( 'NONE',  ( -13.91385300341075038, 4.000000000000000000, -12.40000000000000213 ) ) ;
#172 = CARTESIAN_POINT ( 'NONE',  ( 3.386877561412629856, 4.000000000000000000, -12.40000000000000036 ) ) ;
#173 = VERTEX_POINT ( 'NONE', #244 ) ;
#174 = CIRCLE ( 'NONE', #76, 2.499999999999998668 ) ;
#175 = VECTOR ( 'NONE', #257, 1000.000000000000000 ) ;
#176 = DIRECTION ( 'NONE',  ( 0.000000000000000000, 0.000000000000000000, 1.000000000000000000 ) ) ;
#177 = ADVANCED_FACE ( 'NONE', ( #140 ), #225, .F. ) ;
#178 = PRESENTATION_STYLE_ASSIGNMENT (( #63 ) ) ;
#179 = EDGE_CURVE ( 'NONE', #210, #137, #234, .T. ) ;
#180 = CARTESIAN_POINT ( 'NONE',  ( -13.91385300341075038, 4.000000000000000000, -12.40000000000000213 ) ) ;
#181 = AXIS2_PLACEMENT_3D ( 'NONE', #190, #251, #168 ) ;
#182 = ORIENTED_EDGE ( 'NONE', *, *, #155, .F. ) ;
#183 = VERTEX_POINT ( 'NONE', #147 ) ;
#184 = FACE_OUTER_BOUND ( 'NONE', #248, .T. ) ;
#185 = DIRECTION ( 'NONE',  ( 0.000000000000000000, 0.000000000000000000, 1.000000000000000000 ) ) ;
#186 = CARTESIAN_POINT ( 'NONE',  ( -3.386877561412633408, 0.000000000000000000, 12.40000000000000036 ) ) ;
#187 = ORIENTED_EDGE ( 'NONE', *, *, #241, .F. ) ;
#188 = ORIENTED_EDGE ( 'NONE', *, *, #179, .F. ) ;
#189 = LINE ( 'NONE', #172, #201 ) ;
#190 = CARTESIAN_POINT ( 'NONE',  ( -13.91385300341075038, 4.000000000000000000, -12.40000000000000213 ) ) ;
#191 = FACE_OUTER_BOUND ( 'NONE', #227, .T. ) ;
#192 = DIRECTION ( 'NONE',  ( -0.9205048534524413739, 0.000000000000000000, 0.3907311284892713288 ) ) ;
#193 = DIRECTION ( 'NONE',  ( 1.000000000000000000, 0.000000000000000000, 1.002687990242403024E-16 ) ) ;
#194 = ADVANCED_FACE ( 'NONE', ( #229 ), #43, .F. ) ;
#195 = LINE ( 'NONE', #72, #218 ) ;
#196 = APPLICATION_PROTOCOL_DEFINITION ( 'draft international standard', 'automotive_design', 1998, #141 ) ;
#197 = AXIS2_PLACEMENT_3D ( 'NONE', #79, #161, #204 ) ;
#198 = FILL_AREA_STYLE_COLOUR ( '', #101 ) ;
#199 = ADVANCED_FACE ( 'NONE', ( #191 ), #50, .F. ) ;
#200 = DIRECTION ( 'NONE',  ( -0.000000000000000000, 1.000000000000000000, -0.000000000000000000 ) ) ;
#201 = VECTOR ( 'NONE', #95, 1000.000000000000000 ) ;
#202 = ORIENTED_EDGE ( 'NONE', *, *, #260, .T. ) ;
#203 = PRODUCT_DEFINITION_CONTEXT ( 'detailed design', #141, 'design' ) ;
#204 = DIRECTION ( 'NONE',  ( 0.000000000000000000, 0.000000000000000000, 1.000000000000000000 ) ) ;
#205 = ORIENTED_EDGE ( 'NONE', *, *, #240, .T. ) ;
#206 =( NAMED_UNIT ( * ) SI_UNIT ( $, .STERADIAN. ) SOLID_ANGLE_UNIT ( ) );
#207 = DIRECTION ( 'NONE',  ( 1.002687990242403024E-16, 0.000000000000000000, -1.000000000000000000 ) ) ;
#208 = ORIENTED_EDGE ( 'NONE', *, *, #134, .F. ) ;
#209 = ORIENTED_EDGE ( 'NONE', *, *, #96, .T. ) ;
#210 = VERTEX_POINT ( 'NONE', #26 ) ;
#211 = ORIENTED_EDGE ( 'NONE', *, *, #41, .F. ) ;
#212 = CARTESIAN_POINT ( 'NONE',  ( -3.386877561412633408, 4.000000000000000000, 12.40000000000000036 ) ) ;
#213 = EDGE_CURVE ( 'NONE', #183, #210, #90, .T. ) ;
#214 = DIRECTION ( 'NONE',  ( -0.000000000000000000, -1.000000000000000000, -0.000000000000000000 ) ) ;
#215 = FACE_OUTER_BOUND ( 'NONE', #250, .T. ) ;
#216 = EDGE_CURVE ( 'NONE', #252, #210, #107, .T. ) ;
#217 = EDGE_CURVE ( 'NONE', #224, #85, #174, .T. ) ;
#218 = VECTOR ( 'NONE', #16, 1000.000000000000000 ) ;
#219 = AXIS2_PLACEMENT_3D ( 'NONE', #233, #88, #65 ) ;
#220 = CARTESIAN_POINT ( 'NONE',  ( 0.000000000000000000, 4.000000000000000000, 0.000000000000000000 ) ) ;
#221 = DIRECTION ( 'NONE',  ( -0.000000000000000000, -1.000000000000000000, -0.000000000000000000 ) ) ;
#222 = PRODUCT_DEFINITION ( 'UNKNOWN', '', #17, #203 ) ;
#223 = ORIENTED_EDGE ( 'NONE', *, *, #135, .F. ) ;
#224 = VERTEX_POINT ( 'NONE', #169 ) ;
#225 = CYLINDRICAL_SURFACE ( 'NONE', #25, 2.499999999999999112 ) ;
#226 = DIRECTION ( 'NONE',  ( 0.000000000000000000, -0.000000000000000000, 1.000000000000000000 ) ) ;
#227 = EDGE_LOOP ( 'NONE', ( #123, #44, #146, #118 ) ) ;
#228 = LINE ( 'NONE', #171, #98 ) ;
#229 = FACE_OUTER_BOUND ( 'NONE', #14, .T. ) ;
#230 = ORIENTED_EDGE ( 'NONE', *, *, #162, .T. ) ;
#231 = AXIS2_PLACEMENT_3D ( 'NONE', #220, #55, #185 ) ;
#232 = FACE_OUTER_BOUND ( 'NONE', #31, .T. ) ;
#233 = CARTESIAN_POINT ( 'NONE',  ( 0.000000000000000000, 0.000000000000000000, 0.000000000000000000 ) ) ;
#234 = LINE ( 'NONE', #8, #175 ) ;
#235 = EDGE_CURVE ( 'NONE', #85, #224, #238, .T. ) ;
#236 = ADVANCED_BREP_SHAPE_REPRESENTATION ( '1147076', ( #121, #20 ), #56 ) ;
#237 = PRODUCT ( '1147076', '1147076', '', ( #35 ) ) ;
#238 = CIRCLE ( 'NONE', #75, 2.499999999999998668 ) ;
#239 = VECTOR ( 'NONE', #214, 1000.000000000000000 ) ;
#240 = EDGE_CURVE ( 'NONE', #7, #252, #15, .T. ) ;
#241 = EDGE_CURVE ( 'NONE', #183, #148, #189, .T. ) ;
#242 = CARTESIAN_POINT ( 'NONE',  ( 0.000000000000000000, 4.000000000000000000, 0.000000000000000000 ) ) ;
#243 = DIRECTION ( 'NONE',  ( -0.000000000000000000, 1.000000000000000000, -0.000000000000000000 ) ) ;
#244 = CARTESIAN_POINT ( 'NONE',  ( -3.386877561412633408, 4.000000000000000000, 12.40000000000000036 ) ) ;
#245 = VERTEX_POINT ( 'NONE', #254 ) ;
#246 = EDGE_LOOP ( 'NONE', ( #70, #66, #1, #182 ) ) ;
#247 = ORIENTED_EDGE ( 'NONE', *, *, #71, .F. ) ;
#248 = EDGE_LOOP ( 'NONE', ( #3, #23, #86, #164 ) ) ;
#249 = CARTESIAN_POINT ( 'NONE',  ( 3.061616997868382155E-16, 4.000000000000000000, -2.499999999999999112 ) ) ;
#250 = EDGE_LOOP ( 'NONE', ( #202, #223, #211, #209 ) ) ;
#251 = DIRECTION ( 'NONE',  ( 0.9205048534524414849, 0.000000000000000000, -0.3907311284892712733 ) ) ;
#252 = VERTEX_POINT ( 'NONE', #68 ) ;
#253 = CARTESIAN_POINT ( 'NONE',  ( 0.000000000000000000, 4.000000000000000000, 0.000000000000000000 ) ) ;
#254 = CARTESIAN_POINT ( 'NONE',  ( -13.91385300341075038, 4.000000000000000000, -12.40000000000000213 ) ) ;
#255 = STYLED_ITEM ( 'NONE', ( #178 ), #121 ) ;
#256 = ORIENTED_EDGE ( 'NONE', *, *, #216, .F. ) ;
#257 = DIRECTION ( 'NONE',  ( -0.3907311284892713288, -0.000000000000000000, -0.9205048534524413739 ) ) ;
#258 = VECTOR ( 'NONE', #221, 1000.000000000000000 ) ;
#259 = CARTESIAN_POINT ( 'NONE',  ( -3.386877561412633408, 4.000000000000000000, 12.40000000000000036 ) ) ;
#260 = EDGE_CURVE ( 'NONE', #137, #7, #64, .T. ) ;
#261 = CARTESIAN_POINT ( 'NONE',  ( 3.386877561412629856, 0.000000000000000000, -12.40000000000000036 ) ) ;
ENDSEC;
END-ISO-10303-21;
