ISO-10303-21;
HEADER;
FILE_DESCRIPTION (( 'STEP AP214' ),
    '1' );
FILE_NAME ('1147060.STEP',
    '2026-03-11T09:26:26',
    ( '' ),
    ( '' ),
    'SwSTEP 2.0',
    'SolidWorks 2024',
    '' );
FILE_SCHEMA (( 'AUTOMOTIVE_DESIGN' ));
ENDSEC;

DATA;
#1 = ORIENTED_EDGE ( 'NONE', *, *, #217, .F. ) ;
#2 = LINE ( 'NONE', #88, #46 ) ;
#3 = ORIENTED_EDGE ( 'NONE', *, *, #217, .T. ) ;
#4 = CARTESIAN_POINT ( 'NONE',  ( 0.000000000000000000, 0.000000000000000000, 3.399999999999996803 ) ) ;
#5 = ORIENTED_EDGE ( 'NONE', *, *, #91, .F. ) ;
#6 = CARTESIAN_POINT ( 'NONE',  ( 0.000000000000000000, 5.000000000000000000, 0.000000000000000000 ) ) ;
#7 = FILL_AREA_STYLE_COLOUR ( '', #246 ) ;
#8 = FILL_AREA_STYLE ('',( #7 ) ) ;
#9 = AXIS2_PLACEMENT_3D ( 'NONE', #68, #201, #178 ) ;
#10 = ADVANCED_FACE ( 'NONE', ( #226 ), #177, .F. ) ;
#11 = DIRECTION ( 'NONE',  ( 0.000000000000000000, 1.000000000000000000, 0.000000000000000000 ) ) ;
#12 = DIRECTION ( 'NONE',  ( 0.000000000000000000, 0.000000000000000000, 1.000000000000000000 ) ) ;
#13 = ORIENTED_EDGE ( 'NONE', *, *, #74, .T. ) ;
#14 = LINE ( 'NONE', #238, #93 ) ;
#15 = VECTOR ( 'NONE', #127, 1000.000000000000000 ) ;
#16 =( NAMED_UNIT ( * ) PLANE_ANGLE_UNIT ( ) SI_UNIT ( $, .RADIAN. ) );
#17 = EDGE_LOOP ( 'NONE', ( #120, #61, #116, #244 ) ) ;
#18 = LINE ( 'NONE', #156, #67 ) ;
#19 = VERTEX_POINT ( 'NONE', #180 ) ;
#20 = PRODUCT_DEFINITION ( 'UNKNOWN', '', #35, #254 ) ;
#21 = ORIENTED_EDGE ( 'NONE', *, *, #174, .F. ) ;
#22 = ORIENTED_EDGE ( 'NONE', *, *, #36, .F. ) ;
#23 = DIRECTION ( 'NONE',  ( -0.000000000000000000, 1.000000000000000000, -0.000000000000000000 ) ) ;
#24 = VERTEX_POINT ( 'NONE', #121 ) ;
#25 = ADVANCED_FACE ( 'NONE', ( #101 ), #42, .F. ) ;
#26 = CIRCLE ( 'NONE', #215, 3.399999999999996803 ) ;
#27 = CARTESIAN_POINT ( 'NONE',  ( -13.91348772099910569, 0.000000000000000000, -12.40000000000000391 ) ) ;
#28 = ORIENTED_EDGE ( 'NONE', *, *, #140, .T. ) ;
#29 = EDGE_CURVE ( 'NONE', #98, #19, #85, .T. ) ;
#30 = CARTESIAN_POINT ( 'NONE',  ( 0.000000000000000000, 0.000000000000000000, 0.000000000000000000 ) ) ;
#31 = AXIS2_PLACEMENT_3D ( 'NONE', #148, #247, #129 ) ;
#32 = FACE_BOUND ( 'NONE', #200, .T. ) ;
#33 = DIRECTION ( 'NONE',  ( -0.000000000000000000, 1.000000000000000000, -0.000000000000000000 ) ) ;
#34 = FACE_OUTER_BOUND ( 'NONE', #17, .T. ) ;
#35 = PRODUCT_DEFINITION_FORMATION_WITH_SPECIFIED_SOURCE ( 'ANY', '', #252, .NOT_KNOWN. ) ;
#36 = EDGE_CURVE ( 'NONE', #199, #105, #2, .T. ) ;
#37 = FACE_BOUND ( 'NONE', #157, .T. ) ;
#38 = CARTESIAN_POINT ( 'NONE',  ( 0.000000000000000000, 5.000000000000000000, 0.000000000000000000 ) ) ;
#39 = LINE ( 'NONE', #139, #181 ) ;
#40 = ORIENTED_EDGE ( 'NONE', *, *, #80, .T. ) ;
#41 = ORIENTED_EDGE ( 'NONE', *, *, #188, .F. ) ;
#42 = PLANE ( 'NONE',  #9 ) ;
#43 = LINE ( 'NONE', #213, #175 ) ;
#44 = ORIENTED_EDGE ( 'NONE', *, *, #74, .F. ) ;
#45 = DIRECTION ( 'NONE',  ( -0.9205048534524399306, 0.000000000000000000, 0.3907311284892747705 ) ) ;
#46 = VECTOR ( 'NONE', #104, 1000.000000000000000 ) ;
#47 = ORIENTED_EDGE ( 'NONE', *, *, #174, .T. ) ;
#48 = CARTESIAN_POINT ( 'NONE',  ( 3.386512279000890135, 5.000000000000000000, -12.40000000000000391 ) ) ;
#49 = SURFACE_STYLE_USAGE ( .BOTH. , #95 ) ;
#50 = CLOSED_SHELL ( 'NONE', ( #198, #163, #132, #10, #25, #125, #146, #84 ) ) ;
#51 = DIRECTION ( 'NONE',  ( 0.000000000000000000, -0.000000000000000000, 1.000000000000000000 ) ) ;
#52 = DIRECTION ( 'NONE',  ( 0.000000000000000000, 0.000000000000000000, 1.000000000000000000 ) ) ;
#53 =( NAMED_UNIT ( * ) SI_UNIT ( $, .STERADIAN. ) SOLID_ANGLE_UNIT ( ) );
#54 = EDGE_CURVE ( 'NONE', #56, #141, #70, .T. ) ;
#55 = FACE_OUTER_BOUND ( 'NONE', #86, .T. ) ;
#56 = VERTEX_POINT ( 'NONE', #4 ) ;
#57 = CARTESIAN_POINT ( 'NONE',  ( 4.163799117100997108E-16, 5.000000000000000000, -3.399999999999996803 ) ) ;
#58 = EDGE_LOOP ( 'NONE', ( #47, #136, #170, #243 ) ) ;
#59 = VECTOR ( 'NONE', #164, 1000.000000000000000 ) ;
#60 = DIRECTION ( 'NONE',  ( -0.3907311284892747150, -0.000000000000000000, -0.9205048534524399306 ) ) ;
#61 = ORIENTED_EDGE ( 'NONE', *, *, #54, .F. ) ;
#62 = EDGE_CURVE ( 'NONE', #24, #176, #26, .T. ) ;
#63 = CARTESIAN_POINT ( 'NONE',  ( 3.386512279000890135, 5.000000000000000000, -12.40000000000000391 ) ) ;
#64 = DIRECTION ( 'NONE',  ( -1.000000000000000000, -0.000000000000000000, -0.000000000000000000 ) ) ;
#65 = VERTEX_POINT ( 'NONE', #145 ) ;
#66 = DIRECTION ( 'NONE',  ( 0.000000000000000000, 0.000000000000000000, 1.000000000000000000 ) ) ;
#67 = VECTOR ( 'NONE', #113, 1000.000000000000000 ) ;
#68 = CARTESIAN_POINT ( 'NONE',  ( -13.91348772099910569, 5.000000000000000000, -12.40000000000000391 ) ) ;
#69 = SURFACE_STYLE_FILL_AREA ( #8 ) ;
#70 = CIRCLE ( 'NONE', #250, 3.399999999999996803 ) ;
#71 = CARTESIAN_POINT ( 'NONE',  ( 13.91348772099911635, 0.000000000000000000, 12.39999999999999680 ) ) ;
#72 = DIRECTION ( 'NONE',  ( 0.000000000000000000, 1.000000000000000000, 0.000000000000000000 ) ) ;
#73 = DIRECTION ( 'NONE',  ( -0.000000000000000000, 1.000000000000000000, -0.000000000000000000 ) ) ;
#74 = EDGE_CURVE ( 'NONE', #123, #105, #87, .T. ) ;
#75 = ORIENTED_EDGE ( 'NONE', *, *, #54, .T. ) ;
#76 = MANIFOLD_SOLID_BREP ( 'M8 Tapped Hole1', #50 ) ;
#77 = DIRECTION ( 'NONE',  ( 1.000000000000000000, 0.000000000000000000, 0.000000000000000000 ) ) ;
#78 = LINE ( 'NONE', #193, #107 ) ;
#79 = ORIENTED_EDGE ( 'NONE', *, *, #128, .F. ) ;
#80 = EDGE_CURVE ( 'NONE', #65, #19, #183, .T. ) ;
#81 = VECTOR ( 'NONE', #185, 1000.000000000000000 ) ;
#82 = EDGE_LOOP ( 'NONE', ( #260, #44, #79, #204 ) ) ;
#83 = EDGE_LOOP ( 'NONE', ( #206, #203, #172, #13 ) ) ;
#84 = ADVANCED_FACE ( 'NONE', ( #34 ), #166, .F. ) ;
#85 = LINE ( 'NONE', #27, #211 ) ;
#86 = EDGE_LOOP ( 'NONE', ( #241, #242, #3, #41 ) ) ;
#87 = LINE ( 'NONE', #161, #15 ) ;
#88 = CARTESIAN_POINT ( 'NONE',  ( -3.386512279000882586, 0.000000000000000000, 12.39999999999999680 ) ) ;
#89 =( LENGTH_UNIT ( ) NAMED_UNIT ( * ) SI_UNIT ( .MILLI., .METRE. ) );
#90 = LINE ( 'NONE', #248, #232 ) ;
#91 = EDGE_CURVE ( 'NONE', #100, #199, #131, .T. ) ;
#92 =( NAMED_UNIT ( * ) SI_UNIT ( $, .STERADIAN. ) SOLID_ANGLE_UNIT ( ) );
#93 = VECTOR ( 'NONE', #138, 1000.000000000000000 ) ;
#94 = CARTESIAN_POINT ( 'NONE',  ( -3.386512279000882586, 5.000000000000000000, 12.39999999999999680 ) ) ;
#95 = SURFACE_SIDE_STYLE ('',( #69 ) ) ;
#96 = UNCERTAINTY_MEASURE_WITH_UNIT (LENGTH_MEASURE( 1.000000000000000082E-05 ), #89, 'distance_accuracy_value', 'NONE');
#97 = LINE ( 'NONE', #235, #221 ) ;
#98 = VERTEX_POINT ( 'NONE', #208 ) ;
#99 = AXIS2_PLACEMENT_3D ( 'NONE', #38, #173, #152 ) ;
#100 = VERTEX_POINT ( 'NONE', #94 ) ;
#101 = FACE_OUTER_BOUND ( 'NONE', #237, .T. ) ;
#102 =( LENGTH_UNIT ( ) NAMED_UNIT ( * ) SI_UNIT ( .MILLI., .METRE. ) );
#103 = ORIENTED_EDGE ( 'NONE', *, *, #257, .F. ) ;
#104 = DIRECTION ( 'NONE',  ( 1.000000000000000000, 0.000000000000000000, 0.000000000000000000 ) ) ;
#105 = VERTEX_POINT ( 'NONE', #71 ) ;
#106 = DIRECTION ( 'NONE',  ( 0.000000000000000000, 1.000000000000000000, 0.000000000000000000 ) ) ;
#107 = VECTOR ( 'NONE', #60, 1000.000000000000114 ) ;
#108 = PLANE ( 'NONE',  #261 ) ;
#109 = PLANE ( 'NONE',  #118 ) ;
#110 = AXIS2_PLACEMENT_3D ( 'NONE', #197, #12, #77 ) ;
#111 = CIRCLE ( 'NONE', #205, 3.399999999999996803 ) ;
#112 = FACE_OUTER_BOUND ( 'NONE', #58, .T. ) ;
#113 = DIRECTION ( 'NONE',  ( 0.3907311284892746039, 0.000000000000000000, 0.9205048534524400417 ) ) ;
#114 = ORIENTED_EDGE ( 'NONE', *, *, #194, .F. ) ;
#115 = DIRECTION ( 'NONE',  ( 0.3907311284892746039, 0.000000000000000000, 0.9205048534524400417 ) ) ;
#116 = ORIENTED_EDGE ( 'NONE', *, *, #188, .T. ) ;
#117 = PRODUCT_DEFINITION_SHAPE ( 'NONE', 'NONE',  #20 ) ;
#118 = AXIS2_PLACEMENT_3D ( 'NONE', #233, #135, #195 ) ;
#119 = VERTEX_POINT ( 'NONE', #48 ) ;
#120 = ORIENTED_EDGE ( 'NONE', *, *, #159, .F. ) ;
#121 = CARTESIAN_POINT ( 'NONE',  ( 0.000000000000000000, 5.000000000000000000, 3.399999999999996803 ) ) ;
#122 = DIRECTION ( 'NONE',  ( 0.000000000000000000, 0.000000000000000000, 1.000000000000000000 ) ) ;
#123 = VERTEX_POINT ( 'NONE', #251 ) ;
#124 = APPLICATION_CONTEXT ( 'automotive_design' ) ;
#125 = ADVANCED_FACE ( 'NONE', ( #37, #112 ), #229, .T. ) ;
#126 = VECTOR ( 'NONE', #253, 1000.000000000000000 ) ;
#127 = DIRECTION ( 'NONE',  ( -0.000000000000000000, -1.000000000000000000, -0.000000000000000000 ) ) ;
#128 = EDGE_CURVE ( 'NONE', #100, #123, #207, .T. ) ;
#129 = DIRECTION ( 'NONE',  ( -1.000000000000000000, 0.000000000000000000, -0.000000000000000000 ) ) ;
#130 = FACE_OUTER_BOUND ( 'NONE', #214, .T. ) ;
#131 = LINE ( 'NONE', #165, #81 ) ;
#132 = ADVANCED_FACE ( 'NONE', ( #147 ), #191, .F. ) ;
#133 = AXIS2_PLACEMENT_3D ( 'NONE', #155, #73, #202 ) ;
#134 = CARTESIAN_POINT ( 'NONE',  ( -3.386512279000882586, 0.000000000000000000, 12.39999999999999680 ) ) ;
#135 = DIRECTION ( 'NONE',  ( 0.9205048534524400417, 0.000000000000000000, -0.3907311284892746039 ) ) ;
#136 = ORIENTED_EDGE ( 'NONE', *, *, #128, .T. ) ;
#137 = ORIENTED_EDGE ( 'NONE', *, *, #29, .F. ) ;
#138 = DIRECTION ( 'NONE',  ( -1.000000000000000000, -0.000000000000000000, -0.000000000000000000 ) ) ;
#139 = CARTESIAN_POINT ( 'NONE',  ( 3.386512279000890135, 0.000000000000000000, -12.40000000000000391 ) ) ;
#140 = EDGE_CURVE ( 'NONE', #141, #56, #111, .T. ) ;
#141 = VERTEX_POINT ( 'NONE', #187 ) ;
#142 = MECHANICAL_DESIGN_GEOMETRIC_PRESENTATION_REPRESENTATION (  '', ( #196 ), #167 ) ;
#143 = DIRECTION ( 'NONE',  ( 0.000000000000000000, 1.000000000000000000, 0.000000000000000000 ) ) ;
#144 = EDGE_LOOP ( 'NONE', ( #103, #137, #182, #22 ) ) ;
#145 = CARTESIAN_POINT ( 'NONE',  ( -13.91348772099910569, 5.000000000000000000, -12.40000000000000391 ) ) ;
#146 = ADVANCED_FACE ( 'NONE', ( #32, #249 ), #108, .F. ) ;
#147 = FACE_OUTER_BOUND ( 'NONE', #82, .T. ) ;
#148 = CARTESIAN_POINT ( 'NONE',  ( -3.386512279000882586, 5.000000000000000000, 12.39999999999999680 ) ) ;
#149 = PRESENTATION_LAYER_ASSIGNMENT (  '', '', ( #196 ) ) ;
#150 = PRESENTATION_STYLE_ASSIGNMENT (( #49 ) ) ;
#151 = CARTESIAN_POINT ( 'NONE',  ( -3.386512279000882586, 5.000000000000000000, 12.39999999999999680 ) ) ;
#152 = DIRECTION ( 'NONE',  ( 0.000000000000000000, 0.000000000000000000, 1.000000000000000000 ) ) ;
#153 = APPLICATION_PROTOCOL_DEFINITION ( 'draft international standard', 'automotive_design', 1998, #124 ) ;
#154 = PRODUCT_CONTEXT ( 'NONE', #124, 'mechanical' ) ;
#155 = CARTESIAN_POINT ( 'NONE',  ( 0.000000000000000000, 5.000000000000000000, 0.000000000000000000 ) ) ;
#156 = CARTESIAN_POINT ( 'NONE',  ( -13.91348772099910569, 5.000000000000000000, -12.40000000000000391 ) ) ;
#157 = EDGE_LOOP ( 'NONE', ( #222, #1 ) ) ;
#158 = ORIENTED_EDGE ( 'NONE', *, *, #80, .F. ) ;
#159 = EDGE_CURVE ( 'NONE', #141, #176, #90, .T. ) ;
#160 = CARTESIAN_POINT ( 'NONE',  ( 0.000000000000000000, 5.000000000000000000, 0.000000000000000000 ) ) ;
#161 = CARTESIAN_POINT ( 'NONE',  ( 13.91348772099911635, 5.000000000000000000, 12.39999999999999680 ) ) ;
#162 = ORIENTED_EDGE ( 'NONE', *, *, #257, .T. ) ;
#163 = ADVANCED_FACE ( 'NONE', ( #130 ), #109, .F. ) ;
#164 = DIRECTION ( 'NONE',  ( 1.000000000000000000, 0.000000000000000000, 0.000000000000000000 ) ) ;
#165 = CARTESIAN_POINT ( 'NONE',  ( -3.386512279000882586, 5.000000000000000000, 12.39999999999999680 ) ) ;
#166 = CYLINDRICAL_SURFACE ( 'NONE', #190, 3.399999999999996803 ) ;
#167 =( GEOMETRIC_REPRESENTATION_CONTEXT ( 3 ) GLOBAL_UNCERTAINTY_ASSIGNED_CONTEXT ( ( #96 ) ) GLOBAL_UNIT_ASSIGNED_CONTEXT ( ( #89, #234, #92 ) ) REPRESENTATION_CONTEXT ( 'NONE', 'WORKASPACE' ) );
#168 = EDGE_CURVE ( 'NONE', #105, #98, #39, .T. ) ;
#169 = CARTESIAN_POINT ( 'NONE',  ( 0.000000000000000000, 0.000000000000000000, 0.000000000000000000 ) ) ;
#170 = ORIENTED_EDGE ( 'NONE', *, *, #236, .T. ) ;
#171 = DIRECTION ( 'NONE',  ( -0.3907311284892747150, -0.000000000000000000, -0.9205048534524399306 ) ) ;
#172 = ORIENTED_EDGE ( 'NONE', *, *, #236, .F. ) ;
#173 = DIRECTION ( 'NONE',  ( -0.000000000000000000, 1.000000000000000000, -0.000000000000000000 ) ) ;
#174 = EDGE_CURVE ( 'NONE', #65, #100, #18, .T. ) ;
#175 = VECTOR ( 'NONE', #23, 1000.000000000000000 ) ;
#176 = VERTEX_POINT ( 'NONE', #57 ) ;
#177 = PLANE ( 'NONE',  #256 ) ;
#178 = DIRECTION ( 'NONE',  ( 1.000000000000000000, 0.000000000000000000, -0.000000000000000000 ) ) ;
#179 = APPLICATION_PROTOCOL_DEFINITION ( 'draft international standard', 'automotive_design', 1998, #218 ) ;
#180 = CARTESIAN_POINT ( 'NONE',  ( -13.91348772099910569, 0.000000000000000000, -12.40000000000000391 ) ) ;
#181 = VECTOR ( 'NONE', #171, 1000.000000000000114 ) ;
#182 = ORIENTED_EDGE ( 'NONE', *, *, #168, .F. ) ;
#183 = LINE ( 'NONE', #209, #126 ) ;
#184 = PRODUCT_RELATED_PRODUCT_CATEGORY ( 'part', '', ( #252 ) ) ;
#185 = DIRECTION ( 'NONE',  ( -0.000000000000000000, -1.000000000000000000, -0.000000000000000000 ) ) ;
#186 = DIRECTION ( 'NONE',  ( 0.000000000000000000, -0.000000000000000000, 1.000000000000000000 ) ) ;
#187 = CARTESIAN_POINT ( 'NONE',  ( 4.163799117100997108E-16, 0.000000000000000000, -3.399999999999996803 ) ) ;
#188 = EDGE_CURVE ( 'NONE', #56, #24, #43, .T. ) ;
#189 = CARTESIAN_POINT ( 'NONE',  ( 0.000000000000000000, 5.000000000000000000, 0.000000000000000000 ) ) ;
#190 = AXIS2_PLACEMENT_3D ( 'NONE', #189, #33, #52 ) ;
#191 = PLANE ( 'NONE',  #31 ) ;
#192 = UNCERTAINTY_MEASURE_WITH_UNIT (LENGTH_MEASURE( 1.000000000000000082E-05 ), #102, 'distance_accuracy_value', 'NONE');
#193 = CARTESIAN_POINT ( 'NONE',  ( 3.386512279000890135, 5.000000000000000000, -12.40000000000000391 ) ) ;
#194 = EDGE_CURVE ( 'NONE', #119, #65, #14, .T. ) ;
#195 = DIRECTION ( 'NONE',  ( -0.3907311284892746039, 0.000000000000000000, -0.9205048534524400417 ) ) ;
#196 = STYLED_ITEM ( 'NONE', ( #150 ), #76 ) ;
#197 = CARTESIAN_POINT ( 'NONE',  ( 0.000000000000000000, 0.000000000000000000, 0.000000000000000000 ) ) ;
#198 = ADVANCED_FACE ( 'NONE', ( #55 ), #240, .F. ) ;
#199 = VERTEX_POINT ( 'NONE', #134 ) ;
#200 = EDGE_LOOP ( 'NONE', ( #75, #28 ) ) ;
#201 = DIRECTION ( 'NONE',  ( 0.000000000000000000, 0.000000000000000000, 1.000000000000000000 ) ) ;
#202 = DIRECTION ( 'NONE',  ( 0.000000000000000000, 0.000000000000000000, 1.000000000000000000 ) ) ;
#203 = ORIENTED_EDGE ( 'NONE', *, *, #228, .F. ) ;
#204 = ORIENTED_EDGE ( 'NONE', *, *, #91, .T. ) ;
#205 = AXIS2_PLACEMENT_3D ( 'NONE', #30, #11, #230 ) ;
#206 = ORIENTED_EDGE ( 'NONE', *, *, #168, .T. ) ;
#207 = LINE ( 'NONE', #151, #59 ) ;
#208 = CARTESIAN_POINT ( 'NONE',  ( 3.386512279000890135, 0.000000000000000000, -12.40000000000000391 ) ) ;
#209 = CARTESIAN_POINT ( 'NONE',  ( -13.91348772099910569, 5.000000000000000000, -12.40000000000000391 ) ) ;
#210 = VECTOR ( 'NONE', #115, 1000.000000000000000 ) ;
#211 = VECTOR ( 'NONE', #64, 1000.000000000000000 ) ;
#212 = ADVANCED_BREP_SHAPE_REPRESENTATION ( '1147060', ( #76, #110 ), #225 ) ;
#213 = CARTESIAN_POINT ( 'NONE',  ( 0.000000000000000000, 5.000000000000000000, 3.399999999999996803 ) ) ;
#214 = EDGE_LOOP ( 'NONE', ( #162, #5, #21, #40 ) ) ;
#215 = AXIS2_PLACEMENT_3D ( 'NONE', #160, #223, #122 ) ;
#216 = CARTESIAN_POINT ( 'NONE',  ( -13.91348772099910569, 0.000000000000000000, -12.40000000000000391 ) ) ;
#217 = EDGE_CURVE ( 'NONE', #176, #24, #239, .T. ) ;
#218 = APPLICATION_CONTEXT ( 'automotive_design' ) ;
#219 = SHAPE_DEFINITION_REPRESENTATION ( #117, #212 ) ;
#220 = CARTESIAN_POINT ( 'NONE',  ( 0.000000000000000000, 0.000000000000000000, 0.000000000000000000 ) ) ;
#221 = VECTOR ( 'NONE', #255, 1000.000000000000000 ) ;
#222 = ORIENTED_EDGE ( 'NONE', *, *, #62, .F. ) ;
#223 = DIRECTION ( 'NONE',  ( -0.000000000000000000, 1.000000000000000000, -0.000000000000000000 ) ) ;
#224 = DIRECTION ( 'NONE',  ( 0.3907311284892747705, 0.000000000000000000, 0.9205048534524399306 ) ) ;
#225 =( GEOMETRIC_REPRESENTATION_CONTEXT ( 3 ) GLOBAL_UNCERTAINTY_ASSIGNED_CONTEXT ( ( #192 ) ) GLOBAL_UNIT_ASSIGNED_CONTEXT ( ( #102, #16, #53 ) ) REPRESENTATION_CONTEXT ( 'NONE', 'WORKASPACE' ) );
#226 = FACE_OUTER_BOUND ( 'NONE', #83, .T. ) ;
#227 = AXIS2_PLACEMENT_3D ( 'NONE', #6, #72, #51 ) ;
#228 = EDGE_CURVE ( 'NONE', #119, #98, #97, .T. ) ;
#229 = PLANE ( 'NONE',  #227 ) ;
#230 = DIRECTION ( 'NONE',  ( 0.000000000000000000, 0.000000000000000000, 1.000000000000000000 ) ) ;
#231 = DIRECTION ( 'NONE',  ( -0.000000000000000000, 1.000000000000000000, -0.000000000000000000 ) ) ;
#232 = VECTOR ( 'NONE', #231, 1000.000000000000000 ) ;
#233 = CARTESIAN_POINT ( 'NONE',  ( -13.91348772099910569, 5.000000000000000000, -12.40000000000000391 ) ) ;
#234 =( NAMED_UNIT ( * ) PLANE_ANGLE_UNIT ( ) SI_UNIT ( $, .RADIAN. ) );
#235 = CARTESIAN_POINT ( 'NONE',  ( 3.386512279000890135, 5.000000000000000000, -12.40000000000000391 ) ) ;
#236 = EDGE_CURVE ( 'NONE', #123, #119, #78, .T. ) ;
#237 = EDGE_LOOP ( 'NONE', ( #245, #158, #114, #258 ) ) ;
#238 = CARTESIAN_POINT ( 'NONE',  ( -13.91348772099910569, 5.000000000000000000, -12.40000000000000391 ) ) ;
#239 = CIRCLE ( 'NONE', #99, 3.399999999999996803 ) ;
#240 = CYLINDRICAL_SURFACE ( 'NONE', #133, 3.399999999999996803 ) ;
#241 = ORIENTED_EDGE ( 'NONE', *, *, #140, .F. ) ;
#242 = ORIENTED_EDGE ( 'NONE', *, *, #159, .T. ) ;
#243 = ORIENTED_EDGE ( 'NONE', *, *, #194, .T. ) ;
#244 = ORIENTED_EDGE ( 'NONE', *, *, #62, .T. ) ;
#245 = ORIENTED_EDGE ( 'NONE', *, *, #29, .T. ) ;
#246 = COLOUR_RGB ( '',0.7921568627450980005, 0.8196078431372548767, 0.9333333333333333481 ) ;
#247 = DIRECTION ( 'NONE',  ( 0.000000000000000000, 0.000000000000000000, -1.000000000000000000 ) ) ;
#248 = CARTESIAN_POINT ( 'NONE',  ( 4.163799117100997108E-16, 5.000000000000000000, -3.399999999999996803 ) ) ;
#249 = FACE_OUTER_BOUND ( 'NONE', #144, .T. ) ;
#250 = AXIS2_PLACEMENT_3D ( 'NONE', #220, #143, #66 ) ;
#251 = CARTESIAN_POINT ( 'NONE',  ( 13.91348772099911635, 5.000000000000000000, 12.39999999999999680 ) ) ;
#252 = PRODUCT ( '1147060', '1147060', '', ( #154 ) ) ;
#253 = DIRECTION ( 'NONE',  ( -0.000000000000000000, -1.000000000000000000, -0.000000000000000000 ) ) ;
#254 = PRODUCT_DEFINITION_CONTEXT ( 'detailed design', #218, 'design' ) ;
#255 = DIRECTION ( 'NONE',  ( -0.000000000000000000, -1.000000000000000000, -0.000000000000000000 ) ) ;
#256 = AXIS2_PLACEMENT_3D ( 'NONE', #63, #45, #224 ) ;
#257 = EDGE_CURVE ( 'NONE', #19, #199, #259, .T. ) ;
#258 = ORIENTED_EDGE ( 'NONE', *, *, #228, .T. ) ;
#259 = LINE ( 'NONE', #216, #210 ) ;
#260 = ORIENTED_EDGE ( 'NONE', *, *, #36, .T. ) ;
#261 = AXIS2_PLACEMENT_3D ( 'NONE', #169, #106, #186 ) ;
ENDSEC;
END-ISO-10303-21;
